Смілянський форум

Ласкаво просимо

* Погода 
* Правила   * Учасники
* Вхід   * Реєстрація
Об'яви форума

Смілянський форум засвідчує свою підтримку українському народу. Ми засуджуємо дії російської влади, що нахабно ввела свої збройні сили на територію України.
Ми єдина, незалежна держава і вторгнення на нашу територію - це порушення суверенності України.
Слава Україні !


Сьогодні: 17 Листопада, 2018 14:18

Часовий пояс UTC + 2 годин [ DST ]




Створити нову тему Відповісти  [ 95 повідомлень ]  На сторінку Поперед.  1, 2, 3, 4, 5  Далі
Автор Повідомлення
 Тема повідомлення:
ПовідомленняДодано: 11 Лютого, 2008 21:34 
Офлайн
Ветеран
Ветеран
Аватар користувача

З нами з: 11 Червня, 2007 16:59
Повідомлення: 708
Звідки: Планета Венера )
Репутація: 535
In Flames - The Jesters Dance, аккорды



Riff A (0:00)
|--------------------------------------------------------------------|
|--------------------------------------------------------------------|
|--------------------------------------------------------------------|
|--1---1-1-1---1-1-1---1-1-1---1-1----------------------------------| x4
|----------------------------------2---2-2-2---2-2/4---4-4-4---4-4---|


Riff B (0:22)
|--------------------------------------------------------------------|
|--------------------------------------------------------------------|
|--------------------------------------------------------------------|
|--1---1-1-1---1-1--------------------------------------------------| x4
|------------------2---2-2-2---2-2/4---4-4-4---4-4-4---4-4-4----4-4--|


Riff C (0:43)
|-------------------------------------------------------|
|-------------------------------------------------------|
|----------------------------------------------0---0-1--|
|--3~--4~---------------------4~---3~----1---1---1------|
|----------1~--2~-----2~--4~---------------4------------|


Riff D (0:50)
|-------------------------------------|
|-------------------------------------|
|-------------------------------------|
|-1111111111111111/-------------------| x2
|------------------22222222/44444444--|


Riff A x2 (1:00)


Riff E (1:11)
|-------------------------------------------|
|-------------------------------------------|
|-------------------------------------------|
|--------------------------------4~--1~-----| x4
|-----4~--1~--2~-----------2~--4/-----------|

_________________
Однажды вдруг оказывается, что ты живой. (с) Р. Брэдбери


Догори
 Профіль  
 
 Тема повідомлення:
ПовідомленняДодано: 11 Лютого, 2008 22:06 
:( щось трохи не схоже на орігінал


Догори
  
 
 Тема повідомлення:
ПовідомленняДодано: 26 Лютого, 2008 21:41 
AkkMax4.

http://smilaforum.org.ua/bt/viewtopic.php?t=2104

Зображення

Дуже великий збірник акордів для гітари виконаний в програмі AkkMax4 (останне поновлення акордів в програмі 15.02.2008).
Вміщує в себе акорди всіх відомих і не дуже відомих пісень гуртів починаючи з 70-х і до сьогоднішніх днів.
Містить акорди як зарубижних виконавців так і наших.
правда є один мінус в цій програмі ..... коректний пошук потрібних акордів проводиться тільки при повному введенні автора і пісні вірно.

сайт програми www.AkkMax.narod.ru


Догори
  
 
 Тема повідомлення:
ПовідомленняДодано: 13 Березня, 2008 1:41 
Офлайн
Ветеран
Ветеран

З нами з: 07 Вересня, 2007 11:06
Повідомлення: 766
Репутація: 210
Ого... спасіба +1 тобі...
Але все одно перероблять більшість нада... багато відхилень...)
ДЯКУЮ(=


Догори
 Профіль  
 
 Тема повідомлення:
ПовідомленняДодано: 13 Березня, 2008 9:05 
Офлайн
Ас клавіатури
Ас клавіатури
Аватар користувача

З нами з: 04 Червня, 2007 2:11
Повідомлення: 381
Репутація: 42
І нащо вам ці тупі таби? Установіть собі прогу "Guitar Pro 5" і не мучайтесь %)

_________________
Не ищи проторенный путь - найди свой, и пусть другие следуют им...


Догори
 Профіль  
 
 Тема повідомлення:
ПовідомленняДодано: 15 Березня, 2008 12:10 
Офлайн
Ас клавіатури
Ас клавіатури
Аватар користувача

З нами з: 10 Лютого, 2008 14:11
Повідомлення: 382
Звідки: Earth
Репутація: 125
Ну "Guitar Pro 5" само собой... но не все же через нее делать...
Вот еще одна...может кому то пригодится, песенка прикольная в принципе.

Comfortable place (кто не знает с рекламы Roshen)

капо - 1 лад (в зависимости от настройки апликатуры)

Em Am D
Gotta girl, so fine -
Em Am D
Loves me all the time
Em Am D
Pull her hair, slap her face
Em C
But it's alright…
D Em
She just wants… to be disgraced.

Chorus:
C G D
And you say "it should be better then if…"
Em
I don’t think so.
C
The temptation…
G D
You just can't resist,
Em
So it goes…
C D
Call it heaven, call it a day
Em С
You think it's wrong
G D Em
Oh…. No, it’s such a comfortable place

{дальше по кругу те, что выше}

Oh no, not again…
Bruise the pills,
Cocaine…
Getting off, whether you can,
But it's alright…
As long as it kills the pain

Chorus:
C G D
And you say "it should be better then if…"
Em
I don’t think so.
C
The temptation…
G D
You just can't resist,
Em
So it goes…
C D
Call it heaven, call it a day
Em С
You think it's wrong
G D Em
Oh…. No, it’s such a comfortable place



Gotta girl, so fine -
Loves me all the time
Pull her hair, slap her face
But it's alright…
We just want… to be the preys

Chorus:
C G D
And you say "it should be better then if…"
Em
I don’t think so.
C
The temptation…
G D
You just can't resist,
Em
So it goes…
C D
Call it heaven, call it a day
Em С
You think it's wrong
G D Em
Oh…. No, it’s such a comfortable place

_________________
Зображення


Догори
 Профіль  
 
 Тема повідомлення:
ПовідомленняДодано: 29 Березня, 2008 21:38 
а ось і частина In Flames - The Jesters Dance, аккорды



|------------------------------------------------------------------------------------------------|
|------------------------------------------------------------------------------------------------|
|---------------------------------------------9--7----------------------------------------------|
|-------9---7----------------------------------------------------------9--10--7--9--10--7--9--| 4x
|--7----------10(~)--------------------8---------10(~)------ 10----------------------------|
|------------------------------------------------------------------------------------------------|


|--------------------------------------------------------------------------------------------------|
|--------------------------------------------------------------------------------------------------|
|-----------------------------9--7----------------------------------------------------------------|
|-------9--7------------------------------ ------------9--10--7(~)---------9-10-7-9-10-7-9--| 3x
|--7----------10(~)----8---------10(~)------ 10-----------------------10---------------------|
|-------------------------------------------------------------------------------------------------|


|--------------------------------------------------------------------------------------------------|
|---------------------------------------------------------------------------------------------------|
|----2---------------------------------------------------------------------------|
|----2-----5----2------3----------3---5---10---7---- ------------
|----0-----5----2------3----------3---3---10---5----------------------|
|----------3----0-------1----------1---3---8----5--------------------------------------------------------|

кого ці акорди зацікавлять то далі можу кинути

Додано через 3 хвилин:

кому ще потрібні табулятори до гітар про, питайте, в мене їх 80 000

Додано через 1 хвилину 13 секунд:

Каподастp на пеpший лад.

(1)Вступ. Двiчi.
----------------------------------0-----------------------0------ 1стр.
---1--------0---------1-------0---1-1-------0---------------0---- 2
-----2--------2-----2---2---2---2-2---2-------2---------------2-- 3
-------2--------2-----------------2-----2-------2-----2---------3 4
-0----------------0---------------0-----------------2---2-------- 5
----------1---------------1---------------1-------0-------------- 6

(2)"Завтpа пpийде..."
----------------------------------------------------------0------
-----1--------0-------1-------0-------1-------0-------------3----
---2---2----2---2---2---2---2---2---2---2---2---2-------------2--
------------------------------------------------------2---------3
-0----------------0---------------0-----------------2---2--------
----------1---------------1---------------1-------0--------------

(3)"Хтось пpинесе..."
------------------------------------------------------0----------
---1----------0-------1-------0-------1-------0-----------3------
-----2------2---2---2---2---2---2---2---2---2---2-----------1----
-------2------------------------------------------------2--------
-0----------------0---------------0-----------------2---------0-2
----------1---------------1---------------1-------0--------------

(4)"А вона..."
"Буде пити..."
------0-------3-------3-------0---
--------1-------0-------0-------1-
----------------------------------
---2--------2-------4-------2-----
-3------------------------3-------
----------3-------3---------------

(5)"Я спiватиму..."
-----0-------0---0---------------
-----1-------0---3-3---------1---
-------2-------1-1---1-----2---2-
---2-------2-----2-----2---------
-0---------------2-------0-------
---------0-----------------------

(6)"Та хiба..."
-----0-------0---0-------|
-----1-------0---3-3-----|
-------2-------1-1---1---|
---2-------2-----2-----2-|
-0---------------2-------|
---------0---------------|


(1)(1)

(2)
Завтpа пpийде до кімнати
Твоїх дpузів небагато
Вип'єте холодного вина
(3)
Хтось пpинесе білі айстpи
Скаже хтось: "Життя пpекpасне"
Так, життя пpекpасне. А вона

(4)
А вона, а вона, сидітиме сумна
(4)
Буде пити, не п'яніти від дешевого вина
(5)
Я співатиму для неї, аж бpинітиме кpишталь
(6)
Та хіба зуміє голос подолати цю печаль

(1)

(2)
Так у світі повелося, я люблю її волосся,
Я люблю її тонкі вуста
(3)
Та невдовзі пpийде осінь, ми усі pозбіжимося,
По pусифікованих містах

(4)
Лиш вона, лиш вона сидітиме сумна
(4)
Буде пити, не п'яніти від дешевого вина
(5)
Моя дівчинко печальна, моя доле золота
(6)
Я пpодовжую кpичати, ніч безмежна і пуста

(1)[тут іде соло, яке я затабовувати не буду]

(2)
Так у світі повелося, я люблю її волосся,
Я люблю її тонкі вуста
(3)
Та невдовзі пpийде осінь, ми усі pозбіжимося,
По pусифікованих містах

(4)
Лиш вона, лиш вона сидітиме сумна
(4)
Буде пити, не п'яніти від дешевого вина
(5)
Моя дівчинко печальна, моя доле золота
(6)
Я пpодовжую кpичати, ніч безмежна і пуста
(4)
Я пpодовжую кpичати, ніч безмежна і пуста
(6)
Я пpодовжую кpичати, ніч безмежна і пуста


Догори
  
 
 Тема повідомлення:
ПовідомленняДодано: 10 Липня, 2008 10:40 
Офлайн
Ветеран
Ветеран

З нами з: 07 Вересня, 2007 11:06
Повідомлення: 766
Репутація: 210
Хто там просив....
****************************************************
Arist- Evanescence
Album- Origin
Lineup- Amy Lee, Ben Moody, David Hodges

E----------------------------------------------------------------
B----------------------------------------------------------------
G----------------------------------------------------------------
D----------------------------------------------------------------
A-----14----14-16-17--16h17--14---14-16-17--14-----16-17--14-16-14
E----------------------------------------------------------------


E----------------------------------------------------------------
B----------------------------------------------------------------
G----------------------------------------------------------------
D--16h18-16h18-16h18-19--16-18-19---21-19-18-18h19-19b
A----------------------------------------------------------------
E----------------------------------------------------------------

E----------------------------------------------------------------
B----------------------------------------------------------------
G----------------------------------------------------------------
D--16-18-19-16~------18-19--18-19-21-18h19-18b--------
A----------------------------------------------------------------
E----------------------------------------------------------------


Догори
 Профіль  
 
 Тема повідомлення:
ПовідомленняДодано: 27 Липня, 2008 12:28 
Green Day-Boulevard of Broken Dreams

Em G Dsus2 Esus4 Em
I walk a lonely road, the only one that I have ever known
Don't know where it goes, But it's home to me and I walk alone

Em G Dsus2 Esus4

I walk this empty street, On the Boulevard of broken dreams
Where the city sleeps, And I'm the only one and I walk alone

Em G Dsus2 Esus4 Em
I walk alone, I walk alone.
I walk alone, I walk a....

C G Dsus2 Esus4
My shadows the only one that walks beside me
My shallow hearts the only thing that's beating
Sometimes I wish someone out there will find me
C G Esus4
Till then I walk alone


Em G Dsus2 Esus4
Ah-Ah Ah-Ah Ah-Ah Ahhh-Ah
Em G Dsus2 Esus4
haaa-ah Ah-Ah Ah-Ah Ah-Ah

I'm walking down the line
That divides me somewhere in my mind
On the border line of the edge
And where I walk alone

Read between the lines
What's fucked up and everythings all right
Check my vital signs to know I'm still alive
And I walk alone

I walk alone, I walk alone
I walk alone, I walk a....

My shadows the only one that walks beside me
My shallow hearts the only thing that's beating
Sometimes I wish someone out there will find me
Till then I walk alone

Ah-Ah Ah-Ah Ah-Ah Ahhh-Ah
Ah-Ah Ah-Ah I walk alone, I walk a....

Solo: C G Dsus2 Esus4 > 3 times
C G Esus4

I walk this empty street
On the Boulevard of broken dreams
Where the city sleeps
And I'm the only one and I walk a...,

My shadows the only one that walks beside me
My shallow hearts the only thing that's beating
Sometimes I wish someone out there will find me
Till then I walk alone


Догори
  
 
 Тема повідомлення:
ПовідомленняДодано: 27 Липня, 2008 13:29 
Офлайн
Живу я тут
Живу я тут

З нами з: 16 Лютого, 2008 18:22
Повідомлення: 4831
Звідки: там, там, там де вас нема...
Попередження: 1
Репутація: 3528
Макар, обожнюю цю пісню!! ("А вона")

_________________
ВАЛИМ!.


Догори
 Профіль  
 
 Тема повідомлення:
ПовідомленняДодано: 27 Липня, 2008 14:45 
Хочу Knockin' On Heavens Door на одну гітару - допоможіть !


Догори
  
 
 Тема повідомлення:
ПовідомленняДодано: 27 Липня, 2008 16:08 
Офлайн
Активіст
Активіст
Аватар користувача

З нами з: 15 Червня, 2008 15:52
Повідомлення: 1353
Звідки: Черкаси,вокзал
Репутація: 906
Фанатам ПАНК РОКУ
Адрес пісень та акордів групи "Король и шут" http://kish.wml.in
акорди та пісні "Сектор Газа"
http://sektor-gaza.hih.ru
Удачі

_________________
Ремонт моніторів,пк і.т.д.


Догори
 Профіль  
 
 Тема повідомлення:
ПовідомленняДодано: 28 Липня, 2008 15:39 
Офлайн
Постійний житель
Постійний житель
Аватар користувача

З нами з: 28 Липня, 2008 15:34
Повідомлення: 105
Звідки: Донецк
Репутація: 84
br[A]x написав:
Хочу Knockin' On Heavens Door на одну гітару - допоможіть !

а якого виконавця?... Назва зустрічається у деяких )

_________________
Раз пришлось родиться, дайте насладиться, дайте надышаться, дайте людям шансы
реализоваться, в этот мир ворваться, в этот мир влюбиться, в этот мир врубиться, разочароваться..(с)


Догори
 Профіль  
 
 Тема повідомлення:
ПовідомленняДодано: 28 Липня, 2008 15:46 
Офлайн
Місс Форум 2007
Місс Форум 2007

З нами з: 16 Серпня, 2007 19:18
Повідомлення: 8220
Здається, це Авріл Лавін, але це не її пісня.

_________________
Зображення


Догори
 Профіль  
 
 Тема повідомлення:
ПовідомленняДодано: 28 Липня, 2008 15:49 
Офлайн
Постійний житель
Постійний житель
Аватар користувача

З нами з: 28 Липня, 2008 15:34
Повідомлення: 105
Звідки: Донецк
Репутація: 84
а я відразу уявила Guns'n'Roses

_________________
Раз пришлось родиться, дайте насладиться, дайте надышаться, дайте людям шансы
реализоваться, в этот мир ворваться, в этот мир влюбиться, в этот мир врубиться, разочароваться..(с)


Догори
 Профіль  
 
 Тема повідомлення:
ПовідомленняДодано: 28 Липня, 2008 15:50 
Та і Авріл співала і Guns'n'Roses, впринципі не важливо хто виконував - пісня то одна і та ж, а мені потрібна версія щоб грати на одну гітару !


Догори
  
 
 Тема повідомлення:
ПовідомленняДодано: 28 Липня, 2008 16:25 
Офлайн
Постійний житель
Постійний житель
Аватар користувача

З нами з: 28 Липня, 2008 15:34
Повідомлення: 105
Звідки: Донецк
Репутація: 84
br[A]x написав:
Та і Авріл співала і Guns'n'Roses, впринципі не важливо хто виконував - пісня то одна і та ж, а мені потрібна версія щоб грати на одну гітару !

а, тогда ясно)
Ну це те, що я знайшла. Дуже сумніваюся, що це на одну гітару, але допоможу чим зможу :pardon:

_____________________
Knockin` on Heaven`s Door
Guns N` Roses

Guitar solo 2 (other version) by: Menashe Porath
mphendrix@usa.net or menashe.p@virgin.net

Tuned half step down

fill 2 (used on intro and verses)
G5 D C
|-3---3--------------2-0-------------0--------------------|
|-3-----3---3------3-----3---3-|----------1--------------1------------|
|-0-------0------2---------2---|-0------0---0----------0---0-0------0-|
|-0------------0---------------|-0h2----------2------2-------0h2------|
-------------------|------3---------------------------3---|
|-3-------------------------------------------------------|

fill 1 (used only in verses)
G5 D Am
|-3--------------2-------2-0-------|-0-------------0----------------------|
|-3---3-------3--3-------3-------0-|-1----0h1-------------1---------------|
|-0---0-----0----2----2-------2----|-2--2-----2---------2---2------0---0--|
|-0---0-----0----0----0------------|-2----------2-----2-------0h2----2----|
-----------------------|-0------------------------------------|
|-3-----------------------------------------------------------|

Song goes like this:

Intro: Twice with picking fill 2 G5 D C
Twice just power chords G5 D C

Verse 1 (with fill 1)
G5 D Am
Mamma take this badge from me

(with fill 2)
G5 D C
I can`t use it anymore

(with fill 1)
G5 D Am
It`s getting dark, too dark to see

(with fill 2)
G5 D C
Feels like I`m knockin` on heaven`s door

Chorus:
G5 D5 C5
Knock, knock, knockin` on heaven`s door,
C5
Hey, hey, hey, hey, yeah
G5 D5 C5
Knock, knock, knockin` on heaven`s door,
C5
(no lyrics)
G5 D5 C5
Ooh, knock, knock, knockin` on heaven`s door
C5
Ooh yeah
G5 D5 C5
Knock, knock, knockin` on heaven`s door
C5
Hey, hey, hey, hey, yeah

Solo 1: (over G D and C chords)
-----------------------------------------------|
---------15fb----------------------------------|
|-12-14fb-14p12-14---------14-12-12~~~----------------12---|
-------------------------------13/14-----------|
-----------------------------------------------|
-----------------------------------------------|

---------------------------------------------15----|
|-15/17--15---13p12-13/15--13p12---13p12-----------12-13----13-|
---------------------------------------------------|
------------------------------14~~~----------------|
---------------------------------------------------|
---------------------------------------------------|

---15-17fb--17--17fb--17fb--15----20fb-20p19-20-|
|12~~~---15/17----------------------------------------------|
------------------------------------------------|
------------------------------------------------|
------------------------------------------------|
------------------------------------------------|

|-19-20fb--20-20-20------------------------------------------------|
--------17~~~------------------------------------------|
--------------19fb-19-19fb-19--------------------------|
------------------------------19fb-19-19fb-19----------|
-----------------------------------------------17--17--|
-------------------------------------------------------|

Solo 2:
--------------------------------------------|
|--19b~~~~~~~r-19---19brp17-19-1717----20-17--20-17br---|
--------------------------------------------|
--------------------------------------------|
--------------------------------------------|
--------------------------------------------|

-----------------------------16---18b-18p16-|
|-1517--1517--------1517---------------13--16-----------|
------------------------/13-----------------|
|-----17----19br1719----19br19br17----------------------|
--------------------------------------------|
--------------------------------------------|

|-16-18p16-16-20-19-20-22b-20-19-20-22b--20-19-20-22b-22b-22b---------|
--------------------------------------------------20-22b--|
----------------------------------------------------------|
----------------------------------------------------------|
----------------------------------------------------------|
----------------------------------------------------------|

-----------------------------------------------------|
|--20-22br-20-22-22b-20-22-20--20~~---20-19----19br-17-19-17-17--|
-----------------------------------------------------|
-----------------------------------------------------|
-----------------------------------------------------|
-----------------------------------------------------|

-----------------------------------------------------|
|-2017--17~~15~~12~~~~~~-----------------------------------------|
-------------12~--11~---11br-9~---7--5/4-------------|
-----------------------------------------5-----------|
-----------------------------------------------------|
-----------------------------------------------------|

Solo 2 (another version)
----------------------------------------------------------------|
--20~~~~-20--19~~--19b(20)r19---17-19p17-17~~--20-15b(17)--20---|
|----17---------------------------------------------------------------------|
|-------17------------------------------------------------------------------|
----------------------------------------------------------------|
----------------------------------------------------------------|

---------------15-----------------------15----------------------|
|-15b(17)r(15)--13-15-12~~~---15--10b(12)r10----------15----10/12---10/12---|
----------------------------------12/14-------------------------|
----------------------------------------------------------------|
----------------------------------------------------------------|
----------------------------------------------------------------|

-----15------17/19---17p15h17p15---20p19-20b(22)--20p19-20b(22)-|
--15----15------------------------------------------------------|
|-12~~~--14/16--------------------------------------------------------------|
----------------------------------------------------------------|
----------------------------------------------------------------|
----------------------------------------------------------------|

(Hold bend)
|20p19-20-22b(24)-22b(24)-----------22--------------------------------------|
--------------20-22b(24)--22-r22--20--22pb(24)r22b(24)r22-20----|
----------------------------------------------------------------|
----------------------------------------------------------------|
----------------------------------------------------------------|
----------------------------------------------------------------|

----------------------------------------------------------------|
|-20~~-20-19-19b(20)r19--17--19p17--17~---20--15b(17)---20-----15b(17)--13--|
----------------------------------------------------------------|
----------------------------------------------------------------|
----------------------------------------------------------------|
----------------------------------------------------------------|

----------------------------------------------------------------|
|-15-12~~-------------------------------------------------------------------|
|--------12~~~--11~~~-11b(12)r11/9--9~~~------------------------------------|
----------------------------12~~9b(10)r9------------------------|
------------------------------------------10--------------------|
----------------------------------------------------------------|

Notation:
h - hammer on
p - pull off
/ - slide
~ - vibrato
b - bend; number in brackets shows the target fret
r - release bend back to initial fret after bend


Догори
 Профіль  
 
 Тема повідомлення:
ПовідомленняДодано: 29 Липня, 2008 14:24 
Офлайн
Постійний житель
Постійний житель
Аватар користувача

З нами з: 28 Липня, 2008 15:34
Повідомлення: 105
Звідки: Донецк
Репутація: 84
The Beatles "Let it be"


C G Am F
When I find myself in times of trouble, Mother Mary comes to me
C G F C/e Dm C
Speaking words of wisdom, let it be


And in my hour of darkness, She is standing right in front of me

Speaking words of wisdom, Let it be

Am G F C
Let it be, let it be, let it be, let it be
G C F C/e Dm C
Whisper words of wisdom, let it be


And when the broken hearted people, Living in the world agree

There will be an answer, let it be


But though they may be parted, There is still a chance that they may see

There will be an answer, let it be


CHORUS:Let it be, let it be, let it be, let it be
|
|There will be an answer, let it be
|
|Let it be, let it be, let it be, let it be
|
|Whisper words of wisdom, let it be

LEAD

Let it be, let it be, let it be, let it be

Whisper words of wisdom, let it be


And when the night is cloudy,

There is still a light that shines on me

Shine on till tomorrow, let it be


I wake up to the sound of music, Mother Mary comes to me

Speaking words of wisdom, let it be

CHORUS

Додано через 39 секунд:

7paca Вечное лето


Вступление: F | Dm/F | Am | C

F F6
Быстро мое солнце к закату катится,
Am Am/C
Освещая дороги мои грязные унылые.
Те, что пройдены мной с таким напрягом,
А светлые и думать обо мне давно забыли.
Вот бы снова стать маленьким мальчиком,
Чтобы рисовать все что с нами должно случиться.
Я бы рисовал и ничего плохого
С нами бы уже не могло приключиться...

F Am F Am
Мир был бы другим, я был бы живым...

Я б не рисовал танки и взрывы,
Этому позже они меня научат,
Я б нарисовал большое солнце,
Чтобы каждому достался хотя бы маленький лучик.
Дай мне снова стать этим мальчиком,
Чтобы рисовать все что с нами должно случиться
Я бы уберег вас от страха и боли
Так часто коверкающих наши лица...

Мир был бы другим, я был бы живым...

F Dm/F Am C
Вечное лето рисуют дети,
Я не хочу быть большим.
Вечное лето, я верю детям,
Я не хочу быть большим.

Путаясь в шинелях умирая пятнистыми,
Мир наполняем лишь цветами траура,
Если б ты не знал что такое ненависть,
Ты бы ни за что в меня тогда не выстрелил.
Дай мне снова стать этим мальчиком,
Чтобы рисовать, все что с нами должно случиться,
Я бы рисовал, рисовал бы без устали,
Чтобы смягчить наши лица.

Припев

F Dm/F Am F C G
Вечное лето... Дети, рисуют дети... } 2 раза

_________________
Раз пришлось родиться, дайте насладиться, дайте надышаться, дайте людям шансы
реализоваться, в этот мир ворваться, в этот мир влюбиться, в этот мир врубиться, разочароваться..(с)


Догори
 Профіль  
 
 Тема повідомлення:
ПовідомленняДодано: 06 Серпня, 2008 17:00 
Офлайн
Щось писав
Щось писав
Аватар користувача

З нами з: 04 Серпня, 2008 8:05
Повідомлення: 39
Репутація: 9
Kirk написав:
Установіть собі прогу "Guitar Pro 5" і не мучайтесь %)

+ 100
Гитар про - самая удобная штукенция! gtp-файлов в инете море!
Пример: искал табы к песне Арии "Воля и разум". Не нашёл ни одной нормальной подборки! Есть только интро, которое и по слуху легко подобрать. Потом скачал gtp "Воля и разум" - красота! Все инструменты расписаны: гитары, голос. Играй - не хочу!:)
Гитар про - рулит! :rock:


Догори
 Профіль  
 
 Тема повідомлення:
ПовідомленняДодано: 22 Серпня, 2008 21:21 
Просто класна пісня

Песня ДДТ «Просвистела».

Em C G D Em
Пpосвистела и yпала на столе.
Чyть поела и скатилась по золе
yбитых песен, да мне нечего теpять.
Миp так тесен, дай-ка бpат тебя обнять.

всюдy чеpти надави бpат на педаль.
Час до смеpти, да сгоpевшего не жаль,
А в чистом поле ангелочки, васильки.
Мы на воле нет ни гаpи ни тоски

А на небе встpетят Сашка да Илья,
хватит хлеба, да сто гpамм без них нельзя.
Что нам плакать, здесь не сpам чего стpадать.
Рай не слякоть, вьюга наша благодать.

все pасскажем пpо восход и пpо закат,
гоpы сажи и пpо гоpький маpмелад,
Что доели, когда закончили войнy.
Да как сели мы на Родине в пленy.

Пpосвистела и yпала на столе.
Чyть поела и скатилась по золе
yбитых песен, да мне нечего теpять.
Миp так тесен, дай-ка бpат тебя обнять.

На каждом аккорде нужно играть фигуру Б_V^Б^V^. перебор нужно делать быстро и для каждого акорда своя басовая струна которая эму положена второй басовый удар в переборе по струне на одну ниже.
Вниз нужно бить всеми пальцами, а вверх - только указательным и, как вы уже знаете, только по 3-4 нижним струнам.

Схема песни:

Em Б_V^Б^V^
ПpосвистЕла C Б_V^Б^V^
G Б_V^Б^V^
и yпАла на D Б_V^Б^V^
столЕ. Чуть Em Б_V^Б^V^
поЕла С Б_V^Б^V^
G Б_V^Б^V^
и скатИлась D Б_V^Б^V^
по золЕ убитых Em Б_V^Б^V^
пЕсен, C Б_V^Б^V^
G Б_V^Б^V^
да мне нЕчего D Б_V^Б^V^
теpЯть. Мир так Em Б_V^Б^V^
тЕсен, С Б_V^Б^V^
дай-ка G Б_V^Б^V^
бpАт тебя D Б_V^Б^V^
обнЯть. Em Б_V^Б^V^



Freeman Guitar pro 5 да файна штука ну в ній теж багато чого не покажеш ... як грати чи всіма пальцями чи ні, як краще глушити ребром чи великим пальцем , який акорд бардовский чи простий ... і т д , а з текстом пісень де що починати співати то там зовсім туго.


Догори
  
 
Показувати повідомлення за:  Сортувати за  
Створити нову тему Відповісти  [ 95 повідомлень ]  На сторінку Поперед.  1, 2, 3, 4, 5  Далі

Часовий пояс UTC + 2 годин [ DST ]


Хто зараз онлайн

Зараз переглядають цей форум: Немає зареєстрованих користувачів і 2 гостей


Ви не можете створювати нові теми у цьому форумі
Ви не можете відповідати на теми у цьому форумі
Ви не можете редагувати ваші повідомлення у цьому форумі
Ви не можете видаляти ваші повідомлення у цьому форумі
Ви не можете додавати файли у цьому форумі

Вперед:  
Powered by phpBB © 2000, 2002, 2005, 2007 phpBB Group
Український переклад © 2005-2011 Українська підтримка phpBB
*Мобільна версія