Смілянський форум

Ласкаво просимо

* Погода 
* Правила   * Учасники
* Вхід   * Реєстрація
Об'яви форума

Смілянський форум засвідчує свою підтримку українському народу. Ми засуджуємо дії російської влади, що нахабно ввела свої збройні сили на територію України.
Ми єдина, незалежна держава і вторгнення на нашу територію - це порушення суверенності України.
Слава Україні !


Сьогодні: 14 Грудня, 2017 5:34

Часовий пояс UTC + 2 годин [ DST ]




Створити нову тему Відповісти  [ 95 повідомлень ]  На сторінку 1, 2, 3, 4, 5  Далі
Автор Повідомлення
 Тема повідомлення: акорди к пісням
ПовідомленняДодано: 18 Грудня, 2007 15:47 
Сюди будь-ласка скидайте акорди к вашим улюбленим пісням.


Догори
  
 
 Тема повідомлення:
ПовідомленняДодано: 18 Грудня, 2007 15:51 
Офлайн
Ас клавіатури
Ас клавіатури
Аватар користувача

З нами з: 29 Серпня, 2006 12:07
Повідомлення: 308
Репутація: 213
Исполнитель: Ария
Песня: Ангельская пыль




1.-----------------------------------------------
2.-0-----0-----0---1---1-----1---0-----0-----0---
3.---0-----0-----0---0---0-----0---0-----0-----0-
4.-----2-----2---------2---2---------2-----2-----
5.-----------------------------------------------
6.-----------------------------------------------

1.------------------------------------------------
2.-1-----1-----1------0-----0-----0---1-----1-----
3.---0-----0-----0------0-----0-----0---0-----0---
4.-----2-----2------------2-----2---------2-----2-
5.------------------------------------------------
6.------------------------------------------------


1.-------------------------------------
2.-1---0-----0-----0---1-----1-----1---
3.---0---0-----0-----0---0-----0-----0-
4.---------2-----2---------2-----2-----
5.-------------------------------------
6.-------------------------------------


Em C
На краю обрыва, за которым вечность,
Em Am6
Ты стоиш во во власти странных грез
Em C
И, простившись с Миром, хочешь стать баспечным,
G D
Поиграв с огнём нездешних гроз.

Наконец ты счастлив, как никто на свете,
Ангельская пыль тебя уносит вверх.
Только ей подвластны и восторг, и ветер.
В жидких небесах звучит твой смех.

Припев:
C D Em
Ангельская пыль.
C D B7
Это сон и быль!
Em C G D
Безумец, беглец- дороги нет.
Em C D
Ты видишь неверный свет.
Am F C G
Твой ангел зажег мираж огня.
Am F G
он хочет убить тебя...


На краю обрыва песня неземная,
Музыка богов и голоса богинь.
Ты паришь над миром, но торговец раем
Вынет душу из тебя за гароин.

Ты устал быть птицей и сорвался камнем,
Рухнул с высоты, спасаясь от судьбы.
На краю обрыва вновь летят на пламя
Сотни мотыльков-самоубийц.

Припев.

_________________
Зображення


Догори
 Профіль  
 
 Тема повідомлення:
ПовідомленняДодано: 18 Грудня, 2007 15:53 
Metallica - The Unforgiven
Под гитару, аккорды, табулатура текст.

1)Вступление
e---------------------------
B--0-0-----0-----0-----1----
G------2-----2-----2-----2-- играть 2 раза
D--------2-----2-----2-----2
A--0------------------------
E---------------------------


2)
e------------------------
B------------------------
G--2-4-5--5-4-2--2-4-5--2 эт тоже 2 раза
D------------------------
A------------------------
E------------------------


3)
e-----------------------------------------------------------
B--------------------------------------5-5-5-3--------------
G--2-4-5--5--5-5-4---4----2-4-2--2-4-5---------4-4-0-1/2-4-2
D--0---------------5---2--2------2--------------------------
A-----------------------------------------------------------
E-----------------------------------------------------------


4a) Kirk
G----------------------12-12-11-11------
D--12-12-10-9-12p9-----0--0--0--0--10-10 дважды играть
A--0--0--0--0-0--0-10--------------0--0-
E------------------0--------------------
pm......................................

4b) James
G-------------------2-2-2-2----
D--2-2-2-5----------0-0-0-0-2-2
A--0-0-0-3-2-2--------------0-0
E----------0-0--0-0------------


5)
G-------------------------------------------- --
D--10p0-----9p0-----7p0-----5p0-----5-------5 2а раза -2
A-------0-0-----0-0-----0-0-----0-0-3-3h5p3-5 -2
E-------------------------------------------3 -0
pm.. ... ... ...
riff


6) ^ ^
G-------------------2-2-2-2---- -----
D--2-2-2-5----------0-0-0-0-2-2 -4--4 играть дважды
A--0-0-0-3-2-2--------------0-0 -----
E----------0-0--0-0------------ -----

solo riff


7)
e--0--0--0-0--0-0-0-0--3-3-3-3--0-0-0-0
B--1--1--1-1--1-1-1-1--3-3-3-3--0-0-0-0
G--2--2--2-2--0-0-0-0--0-0-0-0--1-1-1-1
D--2--2--2-2--2-2-2-2--0-0-0-0--2-2-2-2
A--0--0--0-0--3-3-3-3--2-2-2-2--2-2-2-2
E----------------------3-3-3-3--0-0-0-0
Акустика
______________________________________________________________________

pre-solo (чисто, без примочки):
e-------------------------0-0-0-0-0-0-0-------------------------
B-------------------------0-1/3/5\3\1/3--8/10\8-7--5-3-----3----
G----4-5-7-4h5p4---4---------------------7/9-\7-7------5-4---4--
D--7-------------5---5-7---------------------------------------5
A---------------------------------------------------------------
E---------------------------------------------------------------

e---------------------
B---------------------
G----------------5----
D--------------5---5-7
A------3-5/6/7--------
E--3-5----------------

e-------------------------7-----10------12-------14-------15----17
B--8-8p7---7-8---7-8-10-8---8-8----8/10----10/12----12/14----14---
G--------9-----9--------------------------------------------------
D-----------------------------------------------------------------
A-----------------------------------------------------------------
E-----------------------------------------------------------------


Solo (дисторшн)
^ ^ ^
e-----------------------------------
B--7--7-----------------------------
G--7--7-5---------------------------
D---------7~~7-5--------------------
A----------------7-5-3-5-3-------0-3
E--------------------------5-3-0----
pm..............

AH AH AH
e----------------------------------10--------8--------10---
B-------------------7---7-8-7-8-10----10--10---10--10----10
G-----5-7-5-7/9-7-9---9------------------------------------
D--/7------------------------------------------------------
A----------------------------------------------------------
E----------------------------------------------------------

^ ^ ^ ^ ^ ^
e---------------20-20--20-17-20p17----17---
B--20-20--20-17--------------------20----20
G------------------------------------------
D------------------------------------------
A------------------------------------------
E------------------------------------------

e--7-9-10-9----9-----------------------------12------- (7 times)
B-----------10---8-7-5-7-5-3-1-3-1-0------13----13----
G------------------------------------2/14----------14-
D-----------------------------------------------------
A-----------------------------------------------------
E-----------------------------------------------------

^ ^ ^ ^ ^
e-----------------------17-19-20-19-17-19-17----17---------
B---------------20--20-----------------------20----20-17---
G--19-19--19-17------------------------------------------19
D----------------------------------------------------------
A----------------------------------------------------------
E----------------------------------------------------------

e------------------------------------
B------------20---17h18p17~~~17h18p17
G--19--19-17-------------------------
D------------------------------------
A------------------------------------
E------------------------------------

Кроче кто слышал эту песню тот разберётся, а хто нет дак пусть послушает....


Догори
  
 
 Тема повідомлення:
ПовідомленняДодано: 18 Грудня, 2007 22:10 
Scorpions - Stil loving you
Под гитару, аккорды, табулатура текст.


|---6--------6--------6------9\8-6--------6------------5--------------------|
|-----8--------8--------8----------8---8----8-------7-----7-----------------|
|-------7--------7--------7------------7------7-----5-------5---------------|
|-0------------------------------------8--------8---7---------7-------------|
|----------8--------6------------------6------------5-----------------------|
|---------------------------------------------------------------------------|


|---6--------6--------6------9\8-6--------6------------5--------------------|
|-----8--------8--------8----------8---8----8-------7-----7-----------------|
|-------7--------7--------7------------7------7-----5-------5---------------|
|-0------------------------------------8--------8---7-----------------------|
|----------8--------6------------------6------------5-----------------------|
|---------------------------------------------------------------------------|



|---6-----6-----6--|---6-----6-----6-|---6-----6-----6-|---6-----6------6---|
|-----8-----8------|-----7-----7-----|-----7-----7-----|-----7-----7--------|
|-------7-----7----|-------8-----8---|-------8-----8---|-------8-----8------|
|-0----------------|-0---------------|-0---------------|-0------------------|
|------------------|-----------------|-----------------|--------------------|
|------------------|-----------------|-----------------|--------------------|
Time it needs time to win back your love again I will be
Love only love can bring back your love someday I will be

A D
|---9-----9-----9--|----9-----9----9-|---3-----3-----3-|---3-----3-----3----|
|-----8-----8------|------8-----8----|-----2-----2-----|-----2-----2--------|
|-9-----9-----9----|--------9-----9--|-------3-----3---|-------3-----3------|
|------------------|-11--------------|-0---------------|-0------------------|
|------------------|-----------------|-----------------|--------------------|
|------------------|-----------------|-----------------|--------------------|
there I will be there.

|---------------------------------------------------------------------------|
|---------------------------------------------------------------------------|
|------2h3-5-----3p2h3--3p2h3--2------2--3--5--3--5--^^^^^^^^-7-------------|
|-3/5------------------------------5------------------slowly----------------|
|---------------------------------------------------------------------------|
|---------------------------------------------------------------------------|


|----------------------------------------10-13-13^15------------------------|
|-------10h11-13---11p10h11-----10-11-13-------------13^15v13-11-13^^^^15---|
|-10/12----------------------12------------------------------------slowly---|
|---------------------------------------------------------------------------|
|---------------------------------------------------------------------------|
|---------------------------------------------------------------------------|


|------------------|-----------------|-----------------|--------------------|
|------------------|-----------------|-----------------|--------------------|
|------------------|-------------3---|-----------------|-----------------5--|
|-5--5----------5--|-5-------3h5-----|-5--5----------5-|-5---------------5--|
|-5--5----------5--|-5---3h5---------|-5--5----------5-|-5---------------3--|
|-3--3----------3--|-3---------------|-3--3----------3-|-3------------------|
Fight Babe I'll fight to win back your love again I will be
Love only love can break down the walls someday I will be


|------------------|-----------------|-----------------|--------------------|
|------------------|-----------------|-----------------|--------------------|
|------------------|-----------------|-7--7----------7-|-7-------------7----|
|-7--7-----------7-|-7-------------7-|-7--7----------7-|-7-------------7----|
|-7--7-----------7-|-7-------------7-|-5--5----------5-|-5-------------5----|
|-5--5-----------5-|-5-------------5-|-----------------|--------------------|
there I will be there


Догори
  
 
 Тема повідомлення:
ПовідомленняДодано: 18 Грудня, 2007 23:19 
Офлайн
=)
Аватар користувача

З нами з: 19 Вересня, 2006 21:42
Повідомлення: 5460
Звідки: b53
Репутація: 578
ОМГ :shock: Что это за парнуха?

_________________
Зображення
Противник ищущий ваши ошибки, полезнее чем друг желающий их скрыть!


Догори
 Профіль  
 
 Тема повідомлення:
ПовідомленняДодано: 08 Січня, 2008 21:34 
Очень прикольная тема !!!
Мне по крайне мере очень нравитсо )

Scorpions - Send me an Angel


e-------------------------------------------------------------
b---------5-------------5------------3-----------3------------
g------------4-------------4------------2-----------2---------
d---------------2-------------2------------4-----------4------
a-----0------------3-------------5------------2---------------
e-------------------------------------------------------------



e-----------------------------------------------------------------
b---------5-------------5---------------------3------------------
g------------4-------------4------------2-----------2------------
d---------------2-------------2------4-----4-----4----4----------
a-----0-------------3------------5-------------------------------
e-----------------------------------------------------------------


The wise man said just walk this way
To the dawn of the light
The wind will blow into your face
As the years pass you by
Hear this voice from deep inside
It's the call of your heart
Close your eyes and your will find
the passage out of the dark



Припев:

Here I am

Will you send me an angel

Here I am

In the land of the morning star





The wise man said just find your place
In the eye of the storm
Seek the roses along the way.
Just beware of the thorns


Припев:



The wise man said just raise your hand
And reach out for the spell
Find the door to the promised land
Just believe in yourself
Hear this voice from deep inside
It's the call of your heart
Close your eyes and you will find
the way out of the dark

Додано через 4 хвилин 12 секунд:

и немного русского

Кино - Пачка сигарет


Вступление:
E||----------7-5-0------3-0-----------5-2-------|
B||----0-1--------------1---1----3---------1-0--|
G||---------------------0----------2------------|
D||------------------------------0--------------|
A||----------0------0-3-------------------------|
E||----------------------------------------0----|

E||---7-5-------3-0--------5-2------|
B||-------5---------0-1---------1-0-|
G||-0-------5-----------------------|
D||--------------------0------------|
A||-----------0-3-------------------|
E||-----0-------------------------0-|

E||----------7-5-0------3-0-----------5-2-------|
B||----0-1--------------1---1----3---------1-0--|
G||---------------------0----------2------------|
D||------------------------------0--------------|
A||----------0------0-3-------------------------|
E||----------------------------------------0----|
Em
Я сижу..
E||---7-5-------(15-3)------------------2-------|
B||-------5------------(19-0)-----------3-------|
G||-0-------5----------------(19-0)---2---2-----|
D||---------------------------------0-----------|
A||-----------0-3-------------------------------|
E||-----0------------------------------------0--|

(15-3) - флажолет на 15 ладу с зажатой на 3 ладу струной.
(19-0) - флажолет на 19 ладу
(19-0) - флажолет на 19 ладу


Em Am C D Em
Я сижу и смотрю в чужое небо из чужого окна,
Am C D Em
И не вижу ни одной знакомой звезды.
Am C D Em
Я ходил по всем дорогам и туда и сюда,
Am C D Em
Обернулся и не смог разглядеть следы.


Но если есть в кармане пачка сигарет,
Значит всё не так уж плохо на сегодняшний день.
И билет на самолёт с серебристым крылом,
Что взлетая оставляет земле лишь тень.

И никто не хотел быть виноватым без вина,
И никто не хотел руками жар загребать.
А без музыки и на миру смерть не красна,
А без музыки не хочется пропадать.


Но если есть в кармане пачка сигарет,
Значит всё не так уж плохо на сегодняшний день.
И билет на самолёт с серебристым крылом,
Что взлетая оставляет земле лишь тень.


Догори
  
 
 Тема повідомлення:
ПовідомленняДодано: 19 Січня, 2008 14:38 
Смотрю тут у нас мало хто интересуется гитарной
Ну тогда заказывайте интересуемые вас аккорды, попытаюсь скинуть


Догори
  
 
 Тема повідомлення:
ПовідомленняДодано: 19 Січня, 2008 14:43 
Stigmata - Torn хочу X-D


Догори
  
 
 Тема повідомлення:
ПовідомленняДодано: 22 Січня, 2008 22:51 
ги уце так заказав )) таке ще й найти треба


Догори
  
 
 Тема повідомлення:
ПовідомленняДодано: 22 Січня, 2008 23:15 
T0x1n написав:
ОМГ :shock: Что это за парнуха?

ця парнуха называэться табулатура...допомагаэ пидибрати музыку на гитарах....дуже гарна рич...



хтось виложить Джейн ейр та Стигмату....можно у фотмати ГИТАР ПРО....


Догори
  
 
 Тема повідомлення:
ПовідомленняДодано: 22 Січня, 2008 23:58 
ги, пошукаю ... може знайду. )) але коли пишете то пишіть назви груп повністю і правельно


Догори
  
 
 Тема повідомлення:
ПовідомленняДодано: 22 Січня, 2008 23:59 
Jane Air.....Stigmata.....Origami


Догори
  
 
 Тема повідомлення:
ПовідомленняДодано: 23 Січня, 2008 15:33 
Вот нарыл темку для guitar_pro
Origami_-_Bez_Lishnikh_Slov.gp4


У вас недостатньо прав для перегляду приєднаних до цього повідомлення файлів.


Догори
  
 
 Тема повідомлення:
ПовідомленняДодано: 24 Січня, 2008 3:16 
Офлайн
Ветеран
Ветеран

З нами з: 07 Вересня, 2007 11:06
Повідомлення: 766
Репутація: 210
В общем підібраф йа Торн Стігмати...
Нічого складного... обичні аккорди...

Stigmata - Torn

D (5лад)
Дождь посреди зимы как детский плач
Fm# (9лад)
Меня ты обними и понадёжней спряч
G (10лад)
И прикрывшись тобой...
D
Останусь жив и на исходе дня
Fm#
Ты тихо подойди и разбуди меня:
G
Настало время исчезать...
H
Вижу как на яву,
A
А может быть во сне живу..
G ---------------- A
Бьется моя душа,
-------------------D------------------- A
Чайкой за стеклом, я закрыв глаза
----------------H
В небо полетел..
---------------G---------------A -----------D
Всё чтоя хотел - лиш вопросов почему..
--------------------A-----------------------H
Зачем мне эти сны?... расположенье тел...
-----------------------G ------------------------------H
Ведь я могу быть счастлиф просто лёжа на полу...
--------------A -----------------D
Рядом с тобой остаться я смог...
**********************************************

Продолжать точно так же... Акорди однакові..
Окрім переходу після приспіву далі.. там передостанні два аккорди граються 2 рази..(H та A)...
Проігриш грається на акордах приспіву...
Соло там навіть "солом" назвать нізя тому якшо руки, як то кажиться не криві.. - все вийде;)
Таби писать впадлу вибачайте)

Додано через 6 хвилин 30 секунд:

ЗІ: Рома вибач не кинув тобі як обіцяв.. маєш нагоду подивитись тут:)


Догори
 Профіль  
 
 Тема повідомлення:
ПовідомленняДодано: 05 Лютого, 2008 1:32 
Нічого-нічого, і так велике тобі спасибі :-)


Догори
  
 
 Тема повідомлення:
ПовідомленняДодано: 05 Лютого, 2008 4:37 
Офлайн
Ветеран
Ветеран

З нами з: 07 Вересня, 2007 11:06
Повідомлення: 766
Репутація: 210
Давайте шось разом підбирать\шукать...
Зараз риюсь в аккордах старих %)....
копєц...
А то тема крута.. але мертва)


Догори
 Профіль  
 
 Тема повідомлення:
ПовідомленняДодано: 08 Лютого, 2008 23:47 
а що за тема хоч ?


Догори
  
 
 Тема повідомлення:
ПовідомленняДодано: 09 Лютого, 2008 16:25 
В когось є акорди к In Flames - the jesters dance і к In Flames - everlost(part2)?


Догори
  
 
 Тема повідомлення:
ПовідомленняДодано: 09 Лютого, 2008 16:36 
Офлайн
Ас клавіатури
Ас клавіатури
Аватар користувача

З нами з: 29 Серпня, 2006 12:07
Повідомлення: 308
Репутація: 213
щас посмотрю

Додано через 1 хвилину 24 секунд:

. - palm mute / - slide up to
\ - slide down to ~ - vibrato
" - tremelo picking

Tuning: C (C,F,A#,D#,G,C)

Feedback in the key of C starts off
in this song, from the previous song (Moonshield).

Riff A (lots of echo, reverb, slight flanger, and delay)
|---------------------------------------------------------------------|
|---------------------------------------------------------------------|
|-----9--7----------------------------9--7-----------9-10-7-9-10-7-9--|
|--7--------10------------------------------10------------------------|
|----------------------------------8--------------10------------------|
|---------------------------------------------------------------------|
| |
|---------------------------------------------------------------------|
|---------------------------------------------------------------------|
|---------------------------------------------------------------------|
|--5---5-5-5---5-5-5---5-5-5---5-5-1---1-1-1---1-1-3---3-3-3---3-3----|
(End Riff A)

Repeat Riff A 4 times, but on last time the bass rhythm ends
differently, although the notes stay the same.


Riff B1
|--------------------------------------------------------------------|
|--------------------------------------------------------------------|
|----9-7--------------9--7------------9--10--7------9-10-7-9-10-7-9--|
|--7-----10-----------------10---------------------------------------|
|------------------8--------------10--------------10-----------------|
|--------------------------------------------------------------------|
| |
|--------------------------------------------------------------------|
|--------------------------------------------------------------------|
|--------------------------------------------------------------------|
|--5---5-5-5---5-5-1---1-1-1---1-1-3---3-3-3---3-3-3---3-3-3----3-3--|
(End Riff B1)

Repeat Riff B1 twice, but on the second time the bass rhythm ends
differently although the notes stay the same.
Then, continue to repeat Riff B1 with riff B2 underneath,
and end the bass rhythm differently on the last time.



Riff B2
|------------------------------------------------------------|
|------------------------------------------------------------|
|------------------------------------------------------------| GTR II
|-14~------------------10-12--9~-(9)--9--7-5~-----5--/(10)---|
|------------------/12---------------------------------------|
|------------------------------------------------------------|
| |
|------------------------------------------------------------|
|------------------------------------------------------------|
|-12-(12~)-(12)\--------9-10---------------------------------| GTR III
|-------------------10-------12~-12--12-10-9~--9--9\---------|
|------------------------------------------------------------|
|------------------------------------------------------------|


|----12-10-12----12-10-12----12-10-12-13-12-10---------------|
|-10----------13----------10-------------------12------------|
|-------------------------------------------------12~--(12)\-| GTR II
|------------------------------------------------------------|
|------------------------------------------------------------|
|------------------------------------------------------------|
| |
|------------------------------------------------------------|
|----13-12-13----13-12-13----13-12-13-15-13-12---------------|
|-------------14-------------------------------12------------| GTR III
|-14----------------------15----------------------12~--\X----|
|------------------------------------------------------------|
|------------------------------------------------------------|


triplet *
|--___---------------8-10-/12---|
|-/---\------10---10------------|
|-9-9-9--7-9----9---------------| GTR II
|-------------------------------|
|-------------------------------|
|-------------------------------|
| |
| * |
|-------------------------------|
|-------------------10-12-/13~--|
|-----------9-----9-------------| GTR III
|--10--9-10---12----------------|
|-------------------------------|
|-------------------------------|
(End Riff B2)

*The last note of B2 overlaps the 1st chord in Riff C

Note about Riff C:
The slides in this riff are audible and are definitely
there. However we are not sure if they are simply caused
from moving from one chord to the next or if they are
being consciencely played. However they are there.

Riff C
|-------------------------------------------------------|
|--------------------------------------------3---3-5~---|
|-/2-----------------------------------5-4-5---5--------| GTR I
|-/2--5--2--3--------3-/5-/10-7-------------------------|
|-/0--5--2--3--------3-/5-/10-7-------------------------|
|-----3--0--1--------1-/3-/8--5-------------------------|
| . . . . |
| |
|-------------------------------------------------------|
|-------------------------------------------------------|
|--2-----------------------------------------4---4-5----| GTR II
|--2--5--2-/3--------3-/5-/10-7--------7-5-7---7--------|
|--0--5--2-/3--------3-/5-/10-7-------------------------|
|-----3--0-/1--------1-/3-/8--5-------------------------|
| |
| |
|-------------------------------------------------------|
|--------------------------------------------4---4-5----| BASS
|--0--3--------------------3--0--------7-5-7---7--------|
|--------0--1--------1--3-------------------------------|
(End Riff C)


Riff D
||------------------------------------------------------|
||---5--------3--------5-----5--------3--------5-----6--|
||:-----------------------------------------------------|
||:-----------------------------------------------------|
||------0--0-----0--0-----0-----0--0-----0--0-----0-----|
||------------------------------------------------------|
|| . . . . . . . . . . |
|| |
||------------------------------------------------------|
||------------------------------------------------------|
||:--5--------4--------5-----5--------4--------5-----7--|
||:-----------------------------------------------------|
||------0--0-----0--0-----0-----0--0-----0--0-----0-----|
||------------------------------------------------------|
. . . . . . . . . .

______
| 2.
|-----------------------------------------------||------|
|-------5-------3---------------3--5--3---------||------|
|----------------------5--4--5-----------5--4--:||--5~--|
|----------------------------------------------:||------|
|-----------------------------------------------||------|
|-0--0----0--0-----0----------------------------||------|
| . . . . . || |
| || 2. |
|-----------------------------------------------||------|
|-----------------------------------------------||------|
|-------5-------4---------------4--5--4--------:||------|
|----------------------7--5--7-----------7--5--:||-/7---|
|-----------------------------------------------||------|
|-0--0----0--0-----0----------------------------||------|
. . . . . (End Riff D)


This is the bass line for Riff D; On the second repeat the
rhythm ends differently, but the notes stay the same
|----------------------------------|
|----------------------------------|
|----------------------------------|
|-55555555555555551111111133333333-|


Play Riff A twice

Note about Riff Ex:
1. The slides in this riff are audible and are definitely
there. However we are not sure if they are simply caused
from moving from one chord to the next or if they are
being consciencely played. However they are there.
2. The power chords that appear in ghost notes are audible also.
However, it is impossible to tell whether or not these chords are
being played or whether or not they are caused from frequency
drop outs. Only In Flames themselves whould know!!!

Riff E1
|--------------------------------------------~--|
|------------------------------------------5-8\-|
|-2-----------2-0-2-4-2-0--------------5-7------| GTR I
|-2--5--2--3---------------3--5--10-7-----------|
|-0--5--2--3---------------3--5--10-7-----------|
|----3--0--1---------------1--3---8-5-----------|
| . . . . . . . . . |
| |
|--------------------------------------------~--|
|--------------------------------------------5\-|
|-2------------------------------------2-4-5----| GTR II
|-2--5--2--3--3-2-3-5-3-2--3-/5--10-7-----------|
|-0--5--2--3---------------3-/5--10-7-----------|
|----3--0--1---------------1-/3--8--5-----------|
| . . . . . . . . . |
| |
|-----------------------------------------------|
|-----------------------------------------------| BASS
|-0---------------------------------------------|
|----3--0--1---------------1--3-/8--5-----------|


Riff E2
|----------------------------------------------~--|
|--------------------------------------------5-8\-|
|-2------------/2-0-2-4-2-0--------------5-7------| GTR I
|-2---5--2--3----------------3--5-/10-7-----------|
|-0---5--2--3----------------3--5-/10-7-----------|
|-----3--0--1----------------1--3-/8--5-----------|
| |
| |
|-------------------------------------------------|
|----------------------------------------------5\-|
|-2(2)-----------------------------------2-4-5----| GTR II
|-2(2)-5--2--3--3-2-3-5-3-2--3--5-/10-7-----------|
|-0(0)-5--2--3---------------3--5-/10-7-----------|
|------3--0--1---------------1--3-/8--5-----------|
| |
| |
|-----------------------------------------------|
|-----------------------------------------------| BASS
|-0---------------------------------------------|
|----3--0--1---------------1--3-/8--5-----------|


Riff E3
|----------------------------------------------~--|
|--------------------------------------------5-8\-|
|-2(2)----------2-0-2-4-2-0--------------5-7------| GTR I
|-2(2)-5--2--3---------------3--5-/10-7-----------|
|-0(0)-5--2--3---------------3--5-/10-7-----------|
|------3--0--1---------------1--3-/8--5-----------|
| . . . . . . . . . |
| |
|----------------------------------------------~--|
|----------------------------------------------5\-|
|-2(2)-----------------------------------2-4-5----| GTR II
|-2(2)-5--2--3--3-2-3-5-3-2--3--5-/10-7-----------|
|-0(0)-5--2--3---------------3--5-/10-7-----------|
|------3--0--1---------------1--3-/8--5-----------|
| . . . . . . . . . |
| |
|-----------------------------------------------|
|-----------------------------------------------| BASS
|-0---------------------------------------------|
|----3--0--1---------------1--3-/8--5-----------|



Riff E4
|------------------------------------------------~--|
|----------------------------------------------5-8\-|
|-2(2)-----------/2-0-2-4-2-0--------------5-7------| GTR I
|-2(2)-5(5)-2--3---------------3--5-/10-7-----------|
|-0(0)-5(5)-2--3---------------3--5-/10-7-----------|
|------3(3)-0--1---------------1--3-/8--5-----------|
| |
| |
|-----------------------------------------------ph~-|
|------------------------------------------------5\-|
|-2(2)-------------------------------------2-4-5----| GTR II
|-2(2)-5---2---3--3-2-3-5-3-2--3-/5-/10-7-----------|
|-0(0)-5---2---3---------------3-/5-/10-7-----------|
|------3---0---1---------------1-/3-/8--5-----------|
| |
| |
|-----------------------------------------------|
|-----------------------------------------------| BASS
|-0---------------------------------------------|
|----3--0--1---------------1--3-/8--5-----------|

Play Riff A until fade out.

Додано через 8 хвилин 22 секунд:

_________________
Зображення


Догори
 Профіль  
 
 Тема повідомлення:
ПовідомленняДодано: 09 Лютого, 2008 16:57 
ооо велике спасибі + 1 тобі ;)


Догори
  
 
Показувати повідомлення за:  Сортувати за  
Створити нову тему Відповісти  [ 95 повідомлень ]  На сторінку 1, 2, 3, 4, 5  Далі

Часовий пояс UTC + 2 годин [ DST ]


Хто зараз онлайн

Зараз переглядають цей форум: Немає зареєстрованих користувачів і 1 гість


Ви не можете створювати нові теми у цьому форумі
Ви не можете відповідати на теми у цьому форумі
Ви не можете редагувати ваші повідомлення у цьому форумі
Ви не можете видаляти ваші повідомлення у цьому форумі
Ви не можете додавати файли у цьому форумі

Вперед:  
cron
Powered by phpBB © 2000, 2002, 2005, 2007 phpBB Group
Український переклад © 2005-2011 Українська підтримка phpBB
*Мобільна версія